Rusiskos dainos

Kelias: Akordai.lt forumas > Ieškau akordų > Rusiskos dainos
Mersiukas
Naujokas
2008-05-06 09:28:15
Pranešimai: 1
Paskutinis prisijungimas: 2008-05-06 09:23:40
sveiki, gal kas turite akordu senu geru rusisku dainu?! tarkim batareikia, pastoi paravoz, ir tt?!?!

Na batareika pagal mane turetu skambeti taip:
Am G F E.
priedainyje: Am zemyn/zemyn(leciau); G zemyn/aukstyn/zemyn/aukstyn/zemyn(greiciau);
F zemyn/zemyn(leciau); E zemyn/aukstyn/zemyn/aukstyn/zemyn(greiciau);

o posmuose 6 bosas poto 3 ir 1kartu u 2. ane?!
Skulltower
Gitaros mėgėjas
2008-05-06 18:35:18
Pranešimai: 69
Paskutinis prisijungimas: 2009-04-22 22:16:08
Va dainushka daugelis turbut zhinot ja ish filmo kavkazkaya plenica (kaukazo nelaisve) shita dajna visada grodavau akordajs bet nusprendzhiau susukt ir su tabajs.

1|--------5---------------5-------------5---------3-----3-5---7-
2|--3-3-6----3-5-5--2-2-5----2-3--3-3-6----3-5-5----6-5---------
3|--------------------------------------------------------------
4|--------------------------------------------------------------
5|--------------------------------------------------------------
6|--------------------------------------------------------------

1|-----6-10--6----------5-8--5----------5---------------5-------
2|-8-8---------8-8--6-6--------6--3-3-6----3-5-5--2-2-5--2-3----
3|--------------------------------------------------------------
4|--------------------------------------------------------------
5|--------------------------------------------------------------
6|--------------------------------------------------------------

1|--5---5--11-10-8--6-3-----------------------------------------
2|------------------------5---5--11-10-8--6-3-------------------
3|--------------------------------------------------------------
4|--------------------------------------------------------------
5|--------------------------------------------------------------
6|--------------------------------------------------------------

1|--5---5--11-10-8--6-10---12--13-10-9-12-----------------------
2|--------------------------------------------------------------
3|--------------------------------------------------------------
4|--------------------------------------------------------------
5|--------------------------------------------------------------
6|--------------------------------------------------------------

Tikiu jejgu pasitenksit pagrosit :}

Wa chia ir akordajs imesiu jejgu su tabajs bus sunkoka :}

Am Dm E Am
Где-то на белом свете, там где всегда мороз
Am Dm G C
Трутся спиной медведи о земную ось
Dm G C Am
Мимо плывут столетья, спят подо льдом моря
Am Dm E Am
Трутся об ось медведи, вертится земля

Priedainis:
Am A7 Dm E Am
Ля-ля-ля-ля-ля-ля-ля, вертится быстрей земля > 2 раза

Крутят они стараясь, вертят земную ось
Что бы влюбленным раньше встретиться пришлось
Что бы однажды утром, раньше на год иль два
Кто-то сказал кому-то главные слова

Priedainis

В след за весенним ливнем раньше придет рассвет
И для двоих счастливых много много лет
Будут сверкать зарницы, будут ручьи звенеть,
Будет туман кубится, белый как медведь

Priedainis

Na wa sekmes grojant :}
Skulltower
Gitaros mėgėjas
2008-05-06 18:48:19
Pranešimai: 69
Paskutinis prisijungimas: 2009-04-22 22:16:08
Chia wienas ish populiariausiu liube grupes dajnu.

Давай за

F#m Hm
Война и нааа и най най най и на
E A
Война и нааа и най най най и на
F#m Hm
Война и нааа и най най най и на
E C#
Война и нааа и най най най и на

F#m
Серыми тучами небо затянуто
Hm
Нервы гитарной струною натянуты
E
Дождь барабанит с утра и до вечера
A
Время застывшее кажется вечностью
F#m
Мы наступаем по всем направлениям
Hm
Танки, пехота, огонь артиллерии
E
Нас убивают, но мы выживаем
C#
И снова в атаку себя мы бросаем

F#m Hm E
Давай за жизнь, давай брат до конца
A
Давай за тех, кто с нами был тогда
F#m Hm E
Давай за жизнь, будь проклята война
C#
Помянем тех, кто с нами был тогда

Небо над нами свинцовыми тучами
Стелится низко туманами рваными
Хочется верить, что все уже кончилось
Только бы выжил товарищ мой раненый
Ты потерпи, браток, не умирай пока
Будешь ты жить еще долго и счастливо
Будем на свадьбе твоей мы отплясывать
Будешь ты в небо детишек подбрасывать

Давай за жизнь, держись, брат, до конца
Давай за тех, кто дома ждет тебя
Давай за жизнь, будь проклята война
Давай за тех, кто дома ждет (тебя)

Давай за них, давай за нас
И за Сибирь, и за Кавказ
За свет далеких городов
И за друзей, и за любовь
Давай за вас, давай за нас
И за десант, и за спецназ
За боевые ордена
Давай поднимем, старина

В старом альбоме нашел фотографии
Деда, он был командир красной армии
«Сыну на память, Берлин 45-го»
Века ушедшего воспоминания
Запах травы на рассвете не скошенной
Стоны земли от бомбежек распаханной
Пара солдатских ботинок истоптанных
Войнами новыми, войнами старыми


Давай за жизнь..., давай за тех...,
Давай за жизнь..., давай помянем тех, кто с нами был...

Gali buti sunku nemokant bare akordu. Mane ypach uzhknisdavo C# akordas kuri patogiausia grot su 2 bare. Na wistiek sekmes :}
Skulltower
Gitaros mėgėjas
2008-05-06 18:51:35
Pranešimai: 69
Paskutinis prisijungimas: 2009-04-22 22:16:08
Atsiprashau tu kuriems nepavyksta perskaityti kaukazo nelaisves tabu. Nes ten tie skajchiukaj bishki ishsimete, taj ne del mano kaltes. Wiska normaliaj buwau sudejes tiesiog pats tinklapis kazhkox. Manau admina ka nors sumastys ;D
dofka
Naujokas
2008-07-03 13:25:55
Pranešimai: 8
Paskutinis prisijungimas: 2008-08-12 20:08:32
Batareika as groju bent taip... Bm,A,G,F#
BENY185
Naujokas
2008-07-05 23:55:14
Pranešimai: 1
Paskutinis prisijungimas: 2008-07-05 23:51:03
noreciau akordus gauti dainos pavarot - masina vremeni dainuoja, dekoju uz pagalba :)
Irmantas
Gitaros mėgėjas
2008-07-07 18:20:33
Pranešimai: 94
Paskutinis prisijungimas: 2014-12-18 11:05:12
nemoku C# :) kaip grot ji?