Akordai

Lietuvos atlikėjų akordai (1653) Užsienio atlikėjų akordai (894) Rusijos atlikėjų akordai (220)  



Wheatus "Teenage dirtbag"

Atsiuntė: dei8is (rašyti pranešimą)
Peržiūrėtas: 1788
Komentarų: 0 (skaityti / rašyti komentarus)
Įvertinimas: 10 / 10 (1 balsų)
Vertinti: vertinimas prieinamas tik registruotiems vartotojams
E-0-----0-----0------0-----0----0----0----0-----0-----0-----0-----0-----0----
B-0-----0-----0------0-----0----0----0----0-----0-----0-----0-----0-----0----
G----------------------------------------------------------------------------
D----------------------------------------------------------------------------
A-------2-2----------0-0--------2-2-------0-0---------2-2---------0-0--------
E-0-0---------0-0----------0-0-------0-0--------0-0---------0-0---------0-0--


E--0----0----0----0----0----0----0----0----|
B--0----0----0----0----0----0----0----0----|
G------------------------------------------|
D------------------------------------------|
A---4-4--0-0--2-2--2-2--4-4--0-0--2-2--2-2-|
E------------------------------------------|

Pried.
E          A                B
Cause I'm just a teenage dirtbag baby
E|----------------------|
B|----------------------|
G|----------------------|
D|-----6----------------|    
A|---4----6-------------|
E|------4---------------|


E          A                B
Yeah I'm just a teenage dirtbag baby
E|----------------------|
B|----------------------|
G|----------------------|
D|-----6----------------|    
A|---4----6-------------|
E|------4---------------|

E           A               B
Listen to Iron Maiden baby with me
E|------------------------|
B|------------------------|
G|------------------------|
D|-----6------2---4-------|    
A|---4----6-0---2---------|
E|------4-----------------|

E      A  (3x)
Yeeah dirtbag, no she doesn't know what she's missin
E|------------------------|
B|------------------------|
G|------------------------|
D|-----6------2---4-------|    
A|---4----6-0---2---------|
E|------4-----------------|

E      A  (3x)
Yeeah dirtbag, no she doesn't know what she's missin

E|------------------------|
B|------------------------|
G|------------------------|
D|-----6------2---4-------|    
A|---4----6-0---2---------|
E|------4-----------------|

Video:

Akordai.lt neatsako už akordų turinį ar jų šaltinį, nes akordus mums atsiunčia patys vartotojai.
Nežinote kaip groti vieną ar kitą akordą? Visą akordų sąrašą rasite šiuo adresu: http://chords.lt/gitaros-akordu-sarasas

Komentarai:
komentarų nėra

Jūsų vardas:

Jūsų komentaras:

Įveskite skaičius iš paveiksliuko: